ISO-10303-21;
HEADER;
/* Generated by software containing ST-Developer
 * from STEP Tools, Inc. (www.steptools.com) 
 */

FILE_DESCRIPTION(
/* description */ (''),
/* implementation_level */ '2;1');

FILE_NAME(
/* name */ '5-16 Knob.stp',
/* time_stamp */ '2023-02-07T08:16:42-05:00',
/* author */ ('rwoods'),
/* organization */ (''),
/* preprocessor_version */ 'ST-DEVELOPER v19.2',
/* originating_system */ 'Autodesk Inventor 2023',
/* authorisation */ '');

FILE_SCHEMA (('AUTOMOTIVE_DESIGN { 1 0 10303 214 3 1 1 }'));
ENDSEC;

DATA;
#10=MECHANICAL_DESIGN_GEOMETRIC_PRESENTATION_REPRESENTATION('',(#13),#409);
#11=SHAPE_REPRESENTATION_RELATIONSHIP('SRR','None',#420,#12);
#12=ADVANCED_BREP_SHAPE_REPRESENTATION('',(#14),#408);
#13=STYLED_ITEM('',(#429),#14);
#14=MANIFOLD_SOLID_BREP('Solid1',#216);
#15=TOROIDAL_SURFACE('',#266,0.4255,0.06);
#16=CYLINDRICAL_SURFACE('',#243,0.3215);
#17=CYLINDRICAL_SURFACE('',#249,0.126);
#18=CYLINDRICAL_SURFACE('',#261,0.19);
#19=CYLINDRICAL_SURFACE('',#269,0.4855);
#20=FACE_BOUND('',#42,.T.);
#21=FACE_BOUND('',#47,.T.);
#22=FACE_BOUND('',#54,.T.);
#23=PLANE('',#241);
#24=PLANE('',#251);
#25=PLANE('',#264);
#26=FACE_OUTER_BOUND('',#40,.T.);
#27=FACE_OUTER_BOUND('',#41,.T.);
#28=FACE_OUTER_BOUND('',#43,.T.);
#29=FACE_OUTER_BOUND('',#44,.T.);
#30=FACE_OUTER_BOUND('',#45,.T.);
#31=FACE_OUTER_BOUND('',#46,.T.);
#32=FACE_OUTER_BOUND('',#48,.T.);
#33=FACE_OUTER_BOUND('',#49,.T.);
#34=FACE_OUTER_BOUND('',#50,.T.);
#35=FACE_OUTER_BOUND('',#51,.T.);
#36=FACE_OUTER_BOUND('',#52,.T.);
#37=FACE_OUTER_BOUND('',#53,.T.);
#38=FACE_OUTER_BOUND('',#55,.T.);
#39=FACE_OUTER_BOUND('',#56,.T.);
#40=EDGE_LOOP('',(#140,#141,#142,#143));
#41=EDGE_LOOP('',(#144));
#42=EDGE_LOOP('',(#145));
#43=EDGE_LOOP('',(#146,#147,#148,#149));
#44=EDGE_LOOP('',(#150,#151,#152,#153,#154));
#45=EDGE_LOOP('',(#155,#156,#157,#158,#159));
#46=EDGE_LOOP('',(#160));
#47=EDGE_LOOP('',(#161));
#48=EDGE_LOOP('',(#162,#163,#164,#165));
#49=EDGE_LOOP('',(#166,#167,#168,#169,#170));
#50=EDGE_LOOP('',(#171,#172,#173,#174,#175,#176));
#51=EDGE_LOOP('',(#177,#178,#179,#180));
#52=EDGE_LOOP('',(#181,#182,#183,#184));
#53=EDGE_LOOP('',(#185));
#54=EDGE_LOOP('',(#186));
#55=EDGE_LOOP('',(#187,#188,#189,#190,#191));
#56=EDGE_LOOP('',(#192,#193,#194,#195));
#57=LINE('',#351,#67);
#58=LINE('',#359,#68);
#59=LINE('',#364,#69);
#60=LINE('',#370,#70);
#61=LINE('',#376,#71);
#62=LINE('',#383,#72);
#63=LINE('',#387,#73);
#64=LINE('',#392,#74);
#65=LINE('',#395,#75);
#66=LINE('',#405,#76);
#67=VECTOR('',#276,0.3165);
#68=VECTOR('',#287,0.3215);
#69=VECTOR('',#292,0.141);
#70=VECTOR('',#299,0.126);
#71=VECTOR('',#308,0.141);
#72=VECTOR('',#315,0.204488887394336);
#73=VECTOR('',#320,0.41657668502853);
#74=VECTOR('',#327,0.19);
#75=VECTOR('',#330,0.3365);
#76=VECTOR('',#345,0.4855);
#77=CIRCLE('',#239,0.3115);
#78=CIRCLE('',#240,0.3215);
#79=CIRCLE('',#242,0.156);
#80=CIRCLE('',#244,0.3215);
#81=CIRCLE('',#246,0.156);
#82=CIRCLE('',#247,0.126);
#83=CIRCLE('',#248,0.126);
#84=CIRCLE('',#250,0.126);
#85=CIRCLE('',#252,0.19);
#86=CIRCLE('',#255,0.218977774788672);
#87=CIRCLE('',#256,0.218977774788672);
#88=CIRCLE('',#257,0.19);
#89=CIRCLE('',#259,0.441029142706151);
#90=CIRCLE('',#260,0.441029142706151);
#91=CIRCLE('',#263,0.3515);
#92=CIRCLE('',#265,0.4855);
#93=CIRCLE('',#267,0.4855);
#94=CIRCLE('',#268,0.06);
#95=VERTEX_POINT('',#348);
#96=VERTEX_POINT('',#350);
#97=VERTEX_POINT('',#354);
#98=VERTEX_POINT('',#357);
#99=VERTEX_POINT('',#361);
#100=VERTEX_POINT('',#363);
#101=VERTEX_POINT('',#365);
#102=VERTEX_POINT('',#369);
#103=VERTEX_POINT('',#373);
#104=VERTEX_POINT('',#378);
#105=VERTEX_POINT('',#379);
#106=VERTEX_POINT('',#382);
#107=VERTEX_POINT('',#386);
#108=VERTEX_POINT('',#388);
#109=VERTEX_POINT('',#394);
#110=VERTEX_POINT('',#398);
#111=VERTEX_POINT('',#401);
#112=EDGE_CURVE('',#95,#95,#77,.T.);
#113=EDGE_CURVE('',#95,#96,#57,.T.);
#114=EDGE_CURVE('',#96,#96,#78,.T.);
#115=EDGE_CURVE('',#97,#97,#79,.T.);
#116=EDGE_CURVE('',#98,#98,#80,.T.);
#117=EDGE_CURVE('',#98,#96,#58,.T.);
#118=EDGE_CURVE('',#99,#99,#81,.T.);
#119=EDGE_CURVE('',#99,#100,#59,.T.);
#120=EDGE_CURVE('',#100,#101,#82,.T.);
#121=EDGE_CURVE('',#101,#100,#83,.T.);
#122=EDGE_CURVE('',#101,#102,#60,.T.);
#123=EDGE_CURVE('',#102,#102,#84,.T.);
#124=EDGE_CURVE('',#103,#103,#85,.T.);
#125=EDGE_CURVE('',#97,#102,#61,.T.);
#126=EDGE_CURVE('',#104,#105,#86,.T.);
#127=EDGE_CURVE('',#105,#104,#87,.T.);
#128=EDGE_CURVE('',#104,#106,#62,.T.);
#129=EDGE_CURVE('',#106,#106,#88,.T.);
#130=EDGE_CURVE('',#105,#107,#63,.T.);
#131=EDGE_CURVE('',#108,#107,#89,.T.);
#132=EDGE_CURVE('',#107,#108,#90,.T.);
#133=EDGE_CURVE('',#106,#103,#64,.T.);
#134=EDGE_CURVE('',#98,#109,#65,.T.);
#135=EDGE_CURVE('',#109,#109,#91,.T.);
#136=EDGE_CURVE('',#110,#110,#92,.T.);
#137=EDGE_CURVE('',#111,#111,#93,.T.);
#138=EDGE_CURVE('',#111,#108,#94,.T.);
#139=EDGE_CURVE('',#111,#110,#66,.T.);
#140=ORIENTED_EDGE('',*,*,#112,.T.);
#141=ORIENTED_EDGE('',*,*,#113,.T.);
#142=ORIENTED_EDGE('',*,*,#114,.T.);
#143=ORIENTED_EDGE('',*,*,#113,.F.);
#144=ORIENTED_EDGE('',*,*,#112,.F.);
#145=ORIENTED_EDGE('',*,*,#115,.F.);
#146=ORIENTED_EDGE('',*,*,#116,.F.);
#147=ORIENTED_EDGE('',*,*,#117,.T.);
#148=ORIENTED_EDGE('',*,*,#114,.F.);
#149=ORIENTED_EDGE('',*,*,#117,.F.);
#150=ORIENTED_EDGE('',*,*,#118,.T.);
#151=ORIENTED_EDGE('',*,*,#119,.T.);
#152=ORIENTED_EDGE('',*,*,#120,.T.);
#153=ORIENTED_EDGE('',*,*,#121,.T.);
#154=ORIENTED_EDGE('',*,*,#119,.F.);
#155=ORIENTED_EDGE('',*,*,#120,.F.);
#156=ORIENTED_EDGE('',*,*,#121,.F.);
#157=ORIENTED_EDGE('',*,*,#122,.T.);
#158=ORIENTED_EDGE('',*,*,#123,.F.);
#159=ORIENTED_EDGE('',*,*,#122,.F.);
#160=ORIENTED_EDGE('',*,*,#124,.T.);
#161=ORIENTED_EDGE('',*,*,#118,.F.);
#162=ORIENTED_EDGE('',*,*,#115,.T.);
#163=ORIENTED_EDGE('',*,*,#125,.T.);
#164=ORIENTED_EDGE('',*,*,#123,.T.);
#165=ORIENTED_EDGE('',*,*,#125,.F.);
#166=ORIENTED_EDGE('',*,*,#126,.T.);
#167=ORIENTED_EDGE('',*,*,#127,.T.);
#168=ORIENTED_EDGE('',*,*,#128,.T.);
#169=ORIENTED_EDGE('',*,*,#129,.T.);
#170=ORIENTED_EDGE('',*,*,#128,.F.);
#171=ORIENTED_EDGE('',*,*,#126,.F.);
#172=ORIENTED_EDGE('',*,*,#127,.F.);
#173=ORIENTED_EDGE('',*,*,#130,.T.);
#174=ORIENTED_EDGE('',*,*,#131,.F.);
#175=ORIENTED_EDGE('',*,*,#132,.F.);
#176=ORIENTED_EDGE('',*,*,#130,.F.);
#177=ORIENTED_EDGE('',*,*,#129,.F.);
#178=ORIENTED_EDGE('',*,*,#133,.T.);
#179=ORIENTED_EDGE('',*,*,#124,.F.);
#180=ORIENTED_EDGE('',*,*,#133,.F.);
#181=ORIENTED_EDGE('',*,*,#116,.T.);
#182=ORIENTED_EDGE('',*,*,#134,.T.);
#183=ORIENTED_EDGE('',*,*,#135,.T.);
#184=ORIENTED_EDGE('',*,*,#134,.F.);
#185=ORIENTED_EDGE('',*,*,#136,.T.);
#186=ORIENTED_EDGE('',*,*,#135,.F.);
#187=ORIENTED_EDGE('',*,*,#137,.T.);
#188=ORIENTED_EDGE('',*,*,#138,.T.);
#189=ORIENTED_EDGE('',*,*,#131,.T.);
#190=ORIENTED_EDGE('',*,*,#132,.T.);
#191=ORIENTED_EDGE('',*,*,#138,.F.);
#192=ORIENTED_EDGE('',*,*,#137,.F.);
#193=ORIENTED_EDGE('',*,*,#139,.T.);
#194=ORIENTED_EDGE('',*,*,#136,.F.);
#195=ORIENTED_EDGE('',*,*,#139,.F.);
#196=CONICAL_SURFACE('',#238,0.3165,0.785398163397448);
#197=CONICAL_SURFACE('',#245,0.141,0.78539816339745);
#198=CONICAL_SURFACE('',#253,0.141,0.785398163397448);
#199=CONICAL_SURFACE('',#254,0.204488887394336,0.916297857297021);
#200=CONICAL_SURFACE('',#258,0.41657668502853,1.30899693899575);
#201=CONICAL_SURFACE('',#262,0.3365,0.785398163397448);
#202=ADVANCED_FACE('',(#26),#196,.T.);
#203=ADVANCED_FACE('',(#27,#20),#23,.T.);
#204=ADVANCED_FACE('',(#28),#16,.T.);
#205=ADVANCED_FACE('',(#29),#197,.F.);
#206=ADVANCED_FACE('',(#30),#17,.F.);
#207=ADVANCED_FACE('',(#31,#21),#24,.F.);
#208=ADVANCED_FACE('',(#32),#198,.F.);
#209=ADVANCED_FACE('',(#33),#199,.F.);
#210=ADVANCED_FACE('',(#34),#200,.T.);
#211=ADVANCED_FACE('',(#35),#18,.F.);
#212=ADVANCED_FACE('',(#36),#201,.T.);
#213=ADVANCED_FACE('',(#37,#22),#25,.T.);
#214=ADVANCED_FACE('',(#38),#15,.T.);
#215=ADVANCED_FACE('',(#39),#19,.T.);
#216=CLOSED_SHELL('',(#202,#203,#204,#205,#206,#207,#208,#209,#210,#211,
#212,#213,#214,#215));
#217=DERIVED_UNIT_ELEMENT(#219,1.);
#218=DERIVED_UNIT_ELEMENT(#414,-3.);
#219=(
CONVERSION_BASED_UNIT('gram',#221)
MASS_UNIT()
NAMED_UNIT(#411)
);
#220=(
MASS_UNIT()
NAMED_UNIT(*)
SI_UNIT(.KILO.,.GRAM.)
);
#221=MASS_MEASURE_WITH_UNIT(MASS_MEASURE(0.001),#220);
#222=DERIVED_UNIT((#217,#218));
#223=MEASURE_REPRESENTATION_ITEM('density measure',
POSITIVE_RATIO_MEASURE(2.7),#222);
#224=PROPERTY_DEFINITION_REPRESENTATION(#229,#226);
#225=PROPERTY_DEFINITION_REPRESENTATION(#230,#227);
#226=REPRESENTATION('material name',(#228),#408);
#227=REPRESENTATION('density',(#223),#408);
#228=DESCRIPTIVE_REPRESENTATION_ITEM('Aluminum 6061','Aluminum 6061');
#229=PROPERTY_DEFINITION('material property','material name',#422);
#230=PROPERTY_DEFINITION('material property','density of part',#422);
#231=DATE_TIME_ROLE('creation_date');
#232=APPLIED_DATE_AND_TIME_ASSIGNMENT(#233,#231,(#422));
#233=DATE_AND_TIME(#234,#235);
#234=CALENDAR_DATE(2011,21,12);
#235=LOCAL_TIME(0,0,0.,#236);
#236=COORDINATED_UNIVERSAL_TIME_OFFSET(0,0,.BEHIND.);
#237=AXIS2_PLACEMENT_3D('',#346,#270,#271);
#238=AXIS2_PLACEMENT_3D('',#347,#272,#273);
#239=AXIS2_PLACEMENT_3D('',#349,#274,#275);
#240=AXIS2_PLACEMENT_3D('',#352,#277,#278);
#241=AXIS2_PLACEMENT_3D('',#353,#279,#280);
#242=AXIS2_PLACEMENT_3D('',#355,#281,#282);
#243=AXIS2_PLACEMENT_3D('',#356,#283,#284);
#244=AXIS2_PLACEMENT_3D('',#358,#285,#286);
#245=AXIS2_PLACEMENT_3D('',#360,#288,#289);
#246=AXIS2_PLACEMENT_3D('',#362,#290,#291);
#247=AXIS2_PLACEMENT_3D('',#366,#293,#294);
#248=AXIS2_PLACEMENT_3D('',#367,#295,#296);
#249=AXIS2_PLACEMENT_3D('',#368,#297,#298);
#250=AXIS2_PLACEMENT_3D('',#371,#300,#301);
#251=AXIS2_PLACEMENT_3D('',#372,#302,#303);
#252=AXIS2_PLACEMENT_3D('',#374,#304,#305);
#253=AXIS2_PLACEMENT_3D('',#375,#306,#307);
#254=AXIS2_PLACEMENT_3D('',#377,#309,#310);
#255=AXIS2_PLACEMENT_3D('',#380,#311,#312);
#256=AXIS2_PLACEMENT_3D('',#381,#313,#314);
#257=AXIS2_PLACEMENT_3D('',#384,#316,#317);
#258=AXIS2_PLACEMENT_3D('',#385,#318,#319);
#259=AXIS2_PLACEMENT_3D('',#389,#321,#322);
#260=AXIS2_PLACEMENT_3D('',#390,#323,#324);
#261=AXIS2_PLACEMENT_3D('',#391,#325,#326);
#262=AXIS2_PLACEMENT_3D('',#393,#328,#329);
#263=AXIS2_PLACEMENT_3D('',#396,#331,#332);
#264=AXIS2_PLACEMENT_3D('',#397,#333,#334);
#265=AXIS2_PLACEMENT_3D('',#399,#335,#336);
#266=AXIS2_PLACEMENT_3D('',#400,#337,#338);
#267=AXIS2_PLACEMENT_3D('',#402,#339,#340);
#268=AXIS2_PLACEMENT_3D('',#403,#341,#342);
#269=AXIS2_PLACEMENT_3D('',#404,#343,#344);
#270=DIRECTION('axis',(0.,0.,1.));
#271=DIRECTION('refdir',(1.,0.,0.));
#272=DIRECTION('center_axis',(0.,0.,1.));
#273=DIRECTION('ref_axis',(-1.,0.,0.));
#274=DIRECTION('center_axis',(0.,0.,1.));
#275=DIRECTION('ref_axis',(-1.,0.,0.));
#276=DIRECTION('',(0.707106781186547,-8.65956056235493E-17,0.707106781186548));
#277=DIRECTION('center_axis',(0.,0.,-1.));
#278=DIRECTION('ref_axis',(-1.,0.,0.));
#279=DIRECTION('center_axis',(0.,0.,-1.));
#280=DIRECTION('ref_axis',(-1.,0.,0.));
#281=DIRECTION('center_axis',(0.,0.,-1.));
#282=DIRECTION('ref_axis',(1.,0.,0.));
#283=DIRECTION('center_axis',(0.,0.,1.));
#284=DIRECTION('ref_axis',(-1.,0.,0.));
#285=DIRECTION('center_axis',(0.,0.,1.));
#286=DIRECTION('ref_axis',(-1.,0.,0.));
#287=DIRECTION('',(0.,0.,-1.));
#288=DIRECTION('center_axis',(0.,0.,1.));
#289=DIRECTION('ref_axis',(-1.,0.,0.));
#290=DIRECTION('center_axis',(0.,0.,1.));
#291=DIRECTION('ref_axis',(-1.,0.,0.));
#292=DIRECTION('',(-0.707106781186548,-8.65956056235494E-17,-0.707106781186547));
#293=DIRECTION('center_axis',(0.,0.,-1.));
#294=DIRECTION('ref_axis',(-1.,0.,0.));
#295=DIRECTION('center_axis',(0.,0.,-1.));
#296=DIRECTION('ref_axis',(-1.,0.,0.));
#297=DIRECTION('center_axis',(0.,0.,1.));
#298=DIRECTION('ref_axis',(1.,0.,0.));
#299=DIRECTION('',(0.,0.,-1.));
#300=DIRECTION('center_axis',(0.,0.,1.));
#301=DIRECTION('ref_axis',(1.,0.,0.));
#302=DIRECTION('center_axis',(0.,0.,-1.));
#303=DIRECTION('ref_axis',(-1.,0.,0.));
#304=DIRECTION('center_axis',(0.,0.,1.));
#305=DIRECTION('ref_axis',(-1.,0.,0.));
#306=DIRECTION('center_axis',(0.,0.,-1.));
#307=DIRECTION('ref_axis',(1.,0.,0.));
#308=DIRECTION('',(0.707106781186547,-8.65956056235493E-17,0.707106781186548));
#309=DIRECTION('center_axis',(0.,-6.03025098453521E-16,1.));
#310=DIRECTION('ref_axis',(-1.,0.,0.));
#311=DIRECTION('center_axis',(0.,0.,1.));
#312=DIRECTION('ref_axis',(-1.,0.,0.));
#313=DIRECTION('center_axis',(0.,0.,1.));
#314=DIRECTION('ref_axis',(-1.,0.,0.));
#315=DIRECTION('',(-0.793353340291234,2.69940657784639E-16,-0.608761429008722));
#316=DIRECTION('center_axis',(0.,0.,-1.));
#317=DIRECTION('ref_axis',(-1.,0.,0.));
#318=DIRECTION('center_axis',(0.,0.,-1.));
#319=DIRECTION('ref_axis',(0.,-1.,0.));
#320=DIRECTION('',(1.18291797137867E-16,0.965925826289068,-0.258819045102521));
#321=DIRECTION('center_axis',(0.,0.,-1.));
#322=DIRECTION('ref_axis',(-1.,0.,0.));
#323=DIRECTION('center_axis',(0.,0.,-1.));
#324=DIRECTION('ref_axis',(-1.,0.,0.));
#325=DIRECTION('center_axis',(0.,0.,-1.));
#326=DIRECTION('ref_axis',(-1.,0.,0.));
#327=DIRECTION('',(0.,0.,-1.));
#328=DIRECTION('center_axis',(0.,0.,1.));
#329=DIRECTION('ref_axis',(-1.,0.,0.));
#330=DIRECTION('',(0.707106781186547,-8.65956056235493E-17,0.707106781186547));
#331=DIRECTION('center_axis',(0.,0.,-1.));
#332=DIRECTION('ref_axis',(-1.,0.,0.));
#333=DIRECTION('center_axis',(0.,0.,-1.));
#334=DIRECTION('ref_axis',(-1.,0.,0.));
#335=DIRECTION('center_axis',(0.,0.,-1.));
#336=DIRECTION('ref_axis',(-1.,0.,0.));
#337=DIRECTION('center_axis',(0.,0.,-1.));
#338=DIRECTION('ref_axis',(-1.,0.,0.));
#339=DIRECTION('center_axis',(0.,0.,1.));
#340=DIRECTION('ref_axis',(-1.,0.,0.));
#341=DIRECTION('center_axis',(-1.22464679914735E-16,-1.,0.));
#342=DIRECTION('ref_axis',(1.,-1.22464679914735E-16,0.));
#343=DIRECTION('center_axis',(0.,0.,1.));
#344=DIRECTION('ref_axis',(-1.,0.,0.));
#345=DIRECTION('',(0.,0.,-1.));
#346=CARTESIAN_POINT('',(0.,0.,0.));
#347=CARTESIAN_POINT('Origin',(0.,0.,0.005));
#348=CARTESIAN_POINT('',(0.3115,3.81477477934401E-17,0.));
#349=CARTESIAN_POINT('Origin',(0.,0.,0.));
#350=CARTESIAN_POINT('',(0.3215,-3.93723945925874E-17,0.01));
#351=CARTESIAN_POINT('',(0.3165,-3.87600711930137E-17,0.005));
#352=CARTESIAN_POINT('Origin',(0.,0.,0.01));
#353=CARTESIAN_POINT('Origin',(0.,0.,0.));
#354=CARTESIAN_POINT('',(-0.156,1.91044900666987E-17,0.));
#355=CARTESIAN_POINT('Origin',(0.,0.,0.));
#356=CARTESIAN_POINT('Origin',(0.,0.,0.));
#357=CARTESIAN_POINT('',(0.3215,3.93723945925874E-17,0.47));
#358=CARTESIAN_POINT('Origin',(0.,0.,0.47));
#359=CARTESIAN_POINT('',(0.3215,3.93723945925874E-17,0.));
#360=CARTESIAN_POINT('Origin',(0.,0.,0.5475));
#361=CARTESIAN_POINT('',(0.156,1.91044900666987E-17,0.5625));
#362=CARTESIAN_POINT('Origin',(0.,0.,0.5625));
#363=CARTESIAN_POINT('',(0.126,-1.54305496692566E-17,0.5325));
#364=CARTESIAN_POINT('',(0.141,1.72675198679777E-17,0.5475));
#365=CARTESIAN_POINT('',(-0.126,-1.54305496692566E-17,0.5325));
#366=CARTESIAN_POINT('Origin',(0.,0.,0.5325));
#367=CARTESIAN_POINT('Origin',(0.,0.,0.5325));
#368=CARTESIAN_POINT('Origin',(0.,0.,-1.0330683156794));
#369=CARTESIAN_POINT('',(-0.126,-1.54305496692566E-17,0.03));
#370=CARTESIAN_POINT('',(-0.126,-1.54305496692566E-17,-1.0330683156794));
#371=CARTESIAN_POINT('Origin',(0.,0.,0.03));
#372=CARTESIAN_POINT('Origin',(0.,0.,0.5625));
#373=CARTESIAN_POINT('',(0.19,2.32682891837997E-17,0.5625));
#374=CARTESIAN_POINT('Origin',(0.,0.,0.5625));
#375=CARTESIAN_POINT('Origin',(0.,0.,0.015));
#376=CARTESIAN_POINT('',(-0.141,1.72675198679777E-17,0.015));
#377=CARTESIAN_POINT('Origin',(0.,-6.70426077448393E-18,0.793617714323462));
#378=CARTESIAN_POINT('',(0.218977774788672,1.34085215489679E-17,0.804735428646924));
#379=CARTESIAN_POINT('',(2.68170430979357E-17,0.218977774788672,0.804735428646924));
#380=CARTESIAN_POINT('Origin',(0.,-1.34085215489679E-17,0.804735428646924));
#381=CARTESIAN_POINT('Origin',(0.,-1.34085215489679E-17,0.804735428646924));
#382=CARTESIAN_POINT('',(0.19,-2.32682891837997E-17,0.7825));
#383=CARTESIAN_POINT('',(0.204488887394336,1.83384053663838E-17,0.793617714323462));
#384=CARTESIAN_POINT('Origin',(0.,0.,0.7825));
#385=CARTESIAN_POINT('Origin',(0.,0.,0.751788960222884));
#386=CARTESIAN_POINT('',(5.40104927945789E-17,0.441029142706151,0.745236943935209));
#387=CARTESIAN_POINT('',(5.10159303919604E-17,0.41657668502853,0.751788960222884));
#388=CARTESIAN_POINT('',(0.441029142706151,-8.10157391918684E-17,0.745236943935209));
#389=CARTESIAN_POINT('Origin',(0.,-2.70052463972895E-17,0.745236943935209));
#390=CARTESIAN_POINT('Origin',(0.,-2.70052463972895E-17,0.745236943935209));
#391=CARTESIAN_POINT('Origin',(0.,0.,0.8125));
#392=CARTESIAN_POINT('',(0.19,-2.32682891837997E-17,0.8125));
#393=CARTESIAN_POINT('Origin',(0.,0.,0.485));
#394=CARTESIAN_POINT('',(0.3515,-4.30463349900295E-17,0.5));
#395=CARTESIAN_POINT('',(0.3365,-4.12093647913084E-17,0.485));
#396=CARTESIAN_POINT('Origin',(0.,0.,0.5));
#397=CARTESIAN_POINT('Origin',(0.,0.,0.5));
#398=CARTESIAN_POINT('',(0.4855,5.9456602098604E-17,0.5));
#399=CARTESIAN_POINT('Origin',(0.,0.,0.5));
#400=CARTESIAN_POINT('Origin',(0.,0.,0.687281394357865));
#401=CARTESIAN_POINT('',(0.4855,5.9456602098604E-17,0.687281394357865));
#402=CARTESIAN_POINT('Origin',(0.,0.,0.687281394357865));
#403=CARTESIAN_POINT('Origin',(0.4255,-5.21087213037199E-17,0.687281394357865));
#404=CARTESIAN_POINT('Origin',(0.,0.,0.5));
#405=CARTESIAN_POINT('',(0.4855,5.9456602098604E-17,0.5));
#406=UNCERTAINTY_MEASURE_WITH_UNIT(LENGTH_MEASURE(0.000393700787401575),
#412,'DISTANCE_ACCURACY_VALUE',
'Maximum model space distance between geometric entities at asserted c
onnectivities');
#407=UNCERTAINTY_MEASURE_WITH_UNIT(LENGTH_MEASURE(0.000393700787401575),
#412,'DISTANCE_ACCURACY_VALUE',
'Maximum model space distance between geometric entities at asserted c
onnectivities');
#408=(
GEOMETRIC_REPRESENTATION_CONTEXT(3)
GLOBAL_UNCERTAINTY_ASSIGNED_CONTEXT((#406))
GLOBAL_UNIT_ASSIGNED_CONTEXT((#412,#416,#417))
REPRESENTATION_CONTEXT('','3D')
);
#409=(
GEOMETRIC_REPRESENTATION_CONTEXT(3)
GLOBAL_UNCERTAINTY_ASSIGNED_CONTEXT((#407))
GLOBAL_UNIT_ASSIGNED_CONTEXT((#412,#416,#417))
REPRESENTATION_CONTEXT('','3D')
);
#410=DIMENSIONAL_EXPONENTS(1.,0.,0.,0.,0.,0.,0.);
#411=DIMENSIONAL_EXPONENTS(0.,1.,0.,0.,0.,0.,0.);
#412=(
CONVERSION_BASED_UNIT('inch',#415)
LENGTH_UNIT()
NAMED_UNIT(#410)
);
#413=(
LENGTH_UNIT()
NAMED_UNIT(*)
SI_UNIT(.MILLI.,.METRE.)
);
#414=(
LENGTH_UNIT()
NAMED_UNIT(*)
SI_UNIT(.CENTI.,.METRE.)
);
#415=LENGTH_MEASURE_WITH_UNIT(LENGTH_MEASURE(25.4),#413);
#416=(
NAMED_UNIT(*)
PLANE_ANGLE_UNIT()
SI_UNIT($,.RADIAN.)
);
#417=(
NAMED_UNIT(*)
SI_UNIT($,.STERADIAN.)
SOLID_ANGLE_UNIT()
);
#418=SHAPE_DEFINITION_REPRESENTATION(#419,#420);
#419=PRODUCT_DEFINITION_SHAPE('',$,#422);
#420=SHAPE_REPRESENTATION('',(#237),#408);
#421=PRODUCT_DEFINITION_CONTEXT('part definition',#426,'design');
#422=PRODUCT_DEFINITION('5-16 Knob','5-16 Knob',#423,#421);
#423=PRODUCT_DEFINITION_FORMATION('',$,#428);
#424=PRODUCT_RELATED_PRODUCT_CATEGORY('5-16 Knob','5-16 Knob',(#428));
#425=APPLICATION_PROTOCOL_DEFINITION('international standard',
'automotive_design',2009,#426);
#426=APPLICATION_CONTEXT(
'Core Data for Automotive Mechanical Design Process');
#427=PRODUCT_CONTEXT('part definition',#426,'mechanical');
#428=PRODUCT('5-16 Knob','5-16 Knob',$,(#427));
#429=PRESENTATION_STYLE_ASSIGNMENT((#430));
#430=SURFACE_STYLE_USAGE(.BOTH.,#433);
#431=SURFACE_STYLE_RENDERING_WITH_PROPERTIES($,#437,(#432));
#432=SURFACE_STYLE_TRANSPARENT(0.);
#433=SURFACE_SIDE_STYLE('',(#434,#431));
#434=SURFACE_STYLE_FILL_AREA(#435);
#435=FILL_AREA_STYLE('',(#436));
#436=FILL_AREA_STYLE_COLOUR('',#437);
#437=COLOUR_RGB('',0.956862745098039,0.956862745098039,0.956862745098039);
ENDSEC;
END-ISO-10303-21;
